首页 TXT谱 Pink Floyd 

let there be more light 吉他谱

建议使用横版查看 或拖曳放大

Transcription by J閞鬽e Melan鏾n (melancon@mindless.com)
Let There Be More Light
by Pink Floyd
from the album "A Saucerful of Secrets"

Intro:

riff 1:
|-------------------------------------|
|-------------------------------------|
|-------------------------------------|
|--0--12--0--10--0--12--0--10--0--12--|

riff 2:
|-----------------------------------|
|-----------------------------------|
|-----------------------------------|
|--0--12--0--10--0--8--0--10--0--8--|

riff 3:
|----------------------------------|
|----------------------------------|
|----------------------------------|
|--0--12--0--10--0--8--0--7--0--5--|


Verse:
(last time)
|---------------------------|--------------------------|
|---------------------------|--------------------------|
|--10--10--10h11p10------8--|--9h10--9h10--9h10--9h10--|
|--------------------10-----|--------------------------|



Chorus:

|----------------------------|--------10-----10-----10----|
|----------------------------|----------------------------|
|--3-----3-----3--3--3-----3/|--8---------8------8------8\|
|----------------------------|----------------------------|

|------------------------------|
|------------------------------|
|--3-----3--3--5-----5------5--|
|------------------------------|

|--------------------------|--------------------------|
|--------------------------|--------------------------|
|--------------------------|--------------------------|
|--5--5--5--5--5--5--5--5--|--4--4--4--4--4--4--4--4--|

--

 热门Pink FloydTXT谱

  
电脑版