首页 TXT谱 Pink Floyd 

the last few bricks 吉他谱

建议使用横版查看 或拖曳放大

PINK FLOYD
THE LAST FEW BRICKS


G||---------------------||----------------------||---------------------||
D||*-------------------*||----------------------||*-------------------*||
A||*--5----------------*||--5----3----1----0----||*-------------------*||
D||---------------------||----------------------||---5-----------------||


2x
--------------------||----------------------||-------------------|
--------------------||*--------------------*||-------------------|
--------------------||*--------------------*||-------------------|
--5--------------5--||---7--------------5---||--7----------------|



-----------------------|-----------------------|----------------------|
-----------------------|-----------------------|----------------------|
--5----5----5----5--3--|--1----1----1----1--0--|----------------------|
-----------------------|-----------------------|--5----5----5----5----|



----------------------|-------------------|------------------|
----------------------|-------------------|------------------|
--3----3----3----3----|-------------------|------------------|
----------------------|--0----------------|------------------|



------------------|------------------|-------------------|
------------------|------------------|-------------------|
------------------|------------------|--2----------------|
------------------|------------------|-------------------|



------------------|------------------|------------------|
------------------|------------------|------------------|
------------------|------------------|------------------|
------------------|------------------|------------------|



-------------------|------------------|------------------|
-------------------|------------------|------------------|
-------------------|------------------|------------------|
--6----------------|------------------|------------------|



------------------|-------------------|------------------|
------------------|-------------------|------------------|
------------------|-------------------|------------------|
------------------|--3----------------|------------------|


3x
------------------|------------------||------------------------||
------------------|------------------||*----------------------*||
------------------|------------------||*----------------------*||
------------------|------------------||---0----0----0----0-----||


3x 3x
------------------------||------------------------||
*----------------------*||*----------------------*||
*--2----2----2----2----*||*----------------------*||
------------------------||---6----6----6----6-----||


3x 3x
------------------------||-------------5--------|-------------------||
*----------------------*||*-------7-------------|------------------*||
*----------------------*||*--5------------------|------------------*||
---3----3----3----3-----||----------------------|-------------------||



--------------------|------------------|-------------------|
*-------------------|------------------|-------------------|
*--0----------------|------------------|-------------------|
--------------------|------------------|--2----------------|



-------------------||-------------------|-------------------|
------------------*||-------------------|-------------------|
------------------*||-------------------|-------------------|
--------------

 热门Pink FloydTXT谱

  
电脑版