首页 TXT谱 Pink Floyd 

lost for words 吉他谱

建议使用横版查看 或拖曳放大

From: mikel@freenet.hut.fi (Mikko Laaninen)
Subject: TAB - Pink Floyd - Lost For Words - COMPLETE

LOST FOR WORDS
>From 'The Division Bell'
Music: David Gilmour
Lyrics: Gilmour/Samson

--7(9)-- =Bend up
--(10)9- =Bend, then play note & release
--4(5)4- =Bend up & back
--8/10-- =Slide up
--9V7--- =Slide down
--0>2--- =Hammer on

Intro (gtrs 1&2):
F C F
e-----------vv---------------v-----------------v---------------v--
B-----------vv---------------v-----------------v---------------v--
G--------0--vv-0>2---2-2--0--v--------------0--v-0>2---2-2--0--v--
D----0>2----vv---------------v-0>2------0>2----v---------------v--
A-3---------vv---------------v-------3---------v---------------v--
E-----------vv---------------v-----------------v---------------v--

C F Am G F C
e-----------------v---------------v-------v---------------v---------------vv
B-----------------v---------------v-------v---------------v---------------vv
G--------------0--v-0>2---2-2--0--v-------v---------------v------------0--vv
D-0>2------0>2----v---------------v-2-----v-0---0>2-0-----v--------0>2----vv
A-------3---------v---------------v-------v------------3--v-0---3---------vv
E-----------------v---------------v-------v---------------v---------------vv



Solo 1 (gtr 1 continues intro fig.):

F C F
e------------------------v-----------v------------------------v--
B-------8----------------v-----------v-0-1-1--1---------------v--
G---7/9----9V7-5--7-5----v-5--7(9)---v-0-2-2--2--0----0-------v--
D---------------------7--v-----------v---3-3--3----3--0--0>2--v--
A------------------------v-----------v------------------------v--
E------------------------v-----------v------------------------v--

C F Am
e------------8-7--v-----------------------v-------------v--
B----------8------v-8/10--8---------------v-------------v--
G------7/9--------v---------9V7-5--7-5----v-5--7(9)-5---v--
D-2---------------v--------------------7--v-------------v--
A-3---------------v-----------------------v-------------v--
E-----------------v-----------------------v-------------v--

G F F C
e-------------------v-------------------------v-----------v--
B-------------------v-------------------------v-----------v--
G-4(5)4-------------v-------------------------v-----------v--
D-------5-5------5--v-5/7--5--5---------------v-----------v--
A------------5/7----v-----------7V5-3--5-3-0--v-3---------v--
E-------------------v-------------------------v-----------v--
I was...

F C
I was spending my time in the doldrums
F C
I was caught in a cauldron of hate
F Am
I felt persecuted and paralysed
2

 热门Pink FloydTXT谱

  
电脑版