首页 TXT谱 Pink Floyd 

sorrow 吉他谱

建议使用横版查看 或拖曳放大

Sorrow
by Pink Floyd

from
A Momentary Lapse of Reason


intro
-----

----------------------------------------------------
----------------------------------------------------
----------------------------------------------------
----------------------------------------------------
--------------------5/7-7vvvvvv--7/9\7\5vvvvvvvv----
--/0vvvvvvvvvvv-------------------------------------


----------------------------------------
----------------------------------------
----------------------------------------
----------------------------------------
-----2/5-5vvvvvvv-----------------------
---3-----------------/0\/vvvvvvvvvvv----



--------------------------------------------------------------------
--------------------------------------------------------------------
--------------------------------------------------------------------
--------------------------------------------------------------------
---5/7-7vvvv---7/9\7\5vvvv------2/5-(3)>5\-0vvvvvv------------------
-----------------------------3-----------------------/0vvvvvvvvvv\--


--------------------------------------------------------------
--------------------------------------------------------------
--------------------------------------------------------------
--------------------------------------------------------------
--5/7-7vvvvvvvv--7/9\7\5vvvvv-------2/5-5vvvvv--5/7-7vvvvvvv--
--------------------------------3-----------------------------


------------------------------------------------------------------------
------------------------------------------------------------------------
----------------------------------------------------------"9"\\\/\\-----
------------------------------------------------------------------------
--7/9\7\5vvvvvvv--------2/5(3)>5--5vvvvvvvvvv---------------------------
-------------------3----------------------------/0vvvvvvvvvvvvvvvvvvvvv-


-------------------------
-------------------------
-------------------------
-------------------------
-------------------------
--///////0vvvvvvvvv------


chords:
-------


EmD/EC/EEm2

---15--- ---14--- ----12--- -----12----
---17--- ---15--- ----13--- -----12----
---16--- ---14--- ----12--- -----12----
-------- -------- --------- -----------
-------- -------- --------- -----------
-------- -------- --------- -----------


Em
--------------------------------------
--------------------------------------
---------------------------7----------
---0\----------------------7----------
---0\----------------------5----------
--------------------------------------
| |
guitar 2; --------------------
--------------------<--- play over the D5 chord, it's
---("0")>"3">("-4")- a harmonic at the third fret,
-------------------- but depress the bar first, so
-------------------- it sounds like your going up to
-------------------- it, than dive w/bar to fret -4.


D/E C/E EM2
---------"12">("10)------------------------------------------
---------------/3>(1)----"12"\"7"/"12"----------------------- <- this is 2
---------------/2>(0)----"12"\"7"/"12"----------------------- guita

 热门Pink FloydTXT谱

  
电脑版