首页 TXT谱 Pink Floyd 

is there anybody out there6 吉他谱

建议使用横版查看 或拖曳放大

Author/Artist: Pink Floyd
Title: Is There Anybody Out There
Album: The Wall
Transcribed by: William Stimpson
Email: blacktouch30@hotmail.com

Here it is (I hope) play it clean with a touch of reverb
and it should flow like honey.

-|---0-------0-------0-------0----|-------0--------|-------0--------|---------
-|-------1-------1-------1-------1|-----1---1------|-----1---1------|---------
-|-----2-------2-------2-------2--|---2-------2----|---2-------2----|---------
-|-2-------2-------2-------2------|-2-----------2--|-3-----------3--|---------
-|--------------------------------|----------------|----------------|---------
-|--------------------------------|----------------|----------------|---------
let everyhing ring through.

-|-------0--------|-------0--------|-------0-------0|----------------|--------
-|-----1---1------|-----1---1------|-----1-------1--|-------1-------1|--------
-|---2-------2----|---2-------2----|---0-------2----|-----0-------0--|--------
-|-4-----------4--|-3-----------3--|-2-------0------|---2-------0----|--------
-|----------------|----------------|----------------|-3-------2------|--------
-|----------------|----------------|----------------|----------------|--------


-|---------0-----------------------|---------0-----------------------|--------
-|-------1---1-----------1-----1---|-------1---1-----------1-----1---|--------
-|-----2-------2-------2---2-----2-|-----2-------2-------2---2-----2-|--------
-|---2-----------2---2-------2-----|---2-----------2---2-------2-----|--------
-|-0---------------0---------------|-0---------------0---------------|--------
-|---------------------------------|---------------------------------|--------


-|-------0--------|-------0--------|-------0--------|-------0--------|--------
-|-----1---1------|-----1---1------|-----1---1------|-----1---1------|--------
-|---2-------2----|---2-------2----|---2-------2----|---2-------2----|--------
-|-2-----------2--|-3-----------3--|-4-----------4--|-3-----------3--|--------
-|----------------|----------------|----------------|----------------|--------
-|----------------|----------------|----------------|----------------|--------


-|-------0-------0-------0---------|---------0------|----------------|--------
-|-----1-------1-------1---1-------|-------1---1----|-------1-----1--|--------
-|---0-------2-------2-------2-----|-----2-------2--|-----2---2-----2|--------
-|-2-------0-------0---------------|---2-----------2|---2-------2----|--------
-|-----------------------------3-2-|-0--------------|-0--------------|--------
-|---------------------------------|----------------|----------------|--------


-|---------0------|---------0------|---------0------|-----------0----|--------
-|-------1---1----|-------1--------|-------1---1----|-------1-3---3--|--------
-|-----2-------2--|-----2----------|-----0-------0--|-----0---------0|--------
-|---2-----------2|---2------------|---2-----------2|---0------------|--------
-|-0--------------|-0--------------|-3--------------|-2--------------|--------
-|----------------|----------------|----------------|----------------|--------

 热门Pink FloydTXT谱

  
电脑版